Загрузка...

Неизвестен - Лезгинка На акустической гитаре

На этой странице можно найти текст песни Неизвестен - Лезгинка На акустической гитаре, прослушать композицию онлайн в хорошем качестве в формате mp3 и скачать на высокой скорости

Артист: Неизвестен

Название трека: Лезгинка (На акустической гитаре)

Время проигрывания: 02:24

Добавлено: 2015-12-13

Прослушали: 366

Скачать

Дискография исполнителя Неизвестен
Текст песни:

Tab

------------0-1---0-------------0---0-------
-----------------------1------------------3-1-
-2-2---2----------2----2---2----------------
-2-----------------2---------2-----------------
-0-----------------0---------0-----------------
-------------------------------------------------

----------------------------0-----------------------------------
3---0------------------3-----3---0--------3---3--1--0-----
0------0---0-0---0---------0------0--0-----------------2--
0-----------0----------------0----------0-----------------2--
-------------------------------------------------------------0--
3-----------3----------------3----------3---------------------

-5-5---3-------0-0-------------0---0---------
-5------------6--------1------------------3-1-
-5-----------------2-----2---2-----------------
-------------------2----------2-----------------
-0-----------------0----------0-----------------
--------------------------------------------------

-------------3-3--1--0--------------------------------------
3---0------3-----------3---3---0--------3---3--1--0-----
0------0---0----------------0------0--0-----------------2-
0----------------------------0----------0-----------------2-
------------------------------------------------------------0-
3-----------3---------------3----------3--------------------

Видео клип LEZGINKA on acoustic guitar - arranged and performed by Alexander Chuyko / ЛЕЗГИНКА на гитаре
Добавить комментарий



    Copyright 2014 | rusongplays.ru